JPHiP Radio (51/200 @ 128 kbs)     Now playing: No Regret Life - Melody

Author Topic: The AKB48 Guitar Tabs / Sheet Music and Performances Thread  (Read 28006 times)

Offline mixedmedia

Re: The AKB48 Guitar Tabs / Sheet Music and Performances Thread
« Reply #20 on: December 30, 2010, 09:46:39 PM »
Glad I found this thread! Looking for a tab of "Korogaru ishi ni nare" but so far the one blog that might have had it seems to have disappeared.

Good looks on SKE's "shoujo wa manatsu ni nani wo suru?"

Looks like I might have to get a capo to play some of the acoustic versions.

Offline boykun

  • トマトケチャップ 100% OK
  • Member+
  • Posts: 3615
  • Thanks: 2028
Re: The AKB48 Guitar Tabs / Sheet Music and Performances Thread
« Reply #21 on: December 31, 2010, 01:33:58 AM »
kimi no koto ga suki dakara!


I'd like this too! The solo is super cool.

I tabbed the intro, sounds alright..
Code: [Select]
kimi no koto ga suki dakara intro

e|--
B|--10-12b14r12-10-12-10-14--
G|--
D|--
A|--
E|--

e|--
B|--12b14--12b14--12-10----10-12-----------------17----16----14----------------------
G|----------------------13-------9-9h11-9----/14----14----14----14-17b19--17b19--17--
D|--
A|--
E|--

e|--14-------------14-12-17b19-17----13-12-------------------------
B|-------15--------------------------------15-13--12~---15~---14~--
G|----------16-13---------------------------------12~---14~---14~--
D|------------------------------------------------12~---12~---11~--
A|--
E|--





edit:

I finally got the balls to do a cover lol. So here's a mistake-riddled cover of Heavy Rotation before the year's end.

ヘビーローテーション






edit:

Didn't do much today, so I took some time to tab the solo to "kimi no koto ga suki dakara" with the help of dudes who posted covers on youtube
Code: [Select]
kimi no koto ga suki dakara solo

e|-----------------------------------------------------
B|-----------------------------------------------------
G|---------------------6--6/9-------------9------9h11--
D|--/7----7------7--9----------------/11-----11--------
A|-----------7-----------------------------------------
E|-----------------------------------------------------

e|-------------------------------------------------------------------------
B|-------10--10--9---9b10r9----------------------10--12--12b14r12--10--12--
G|--/11----------------------11----9--11----/11----------------------------
D|-------------------------------------------------------------------------
A|-------------------------------------------------------------------------
E|-------------------------------------------------------------------------

e|---------------------------------------------16---17---19--19b21---19b21-19-17-16-17-19--------------
B|------------------------------15---17---19----------------------------------------------17-17h19-----
G|------------------14--16--18---------------------------------------------------------------------18--
D|--16-18-19-16-18-------------------------------------------------------------------------------------
A|-----------------------------------------------------------------------------------------------------
E|-----------------------------------------------------------------------------------------------------

e|-------21------19------17-------------------------------------------------------------------------
B|--/17------17------17------17--19b21r--17--19---------17b19r--------------------------------------
G|-----------------------------------------------16\14----------14----13-14-16--------16b18r-14-14--
D|-----------------------------------------------------------------------------14-14----------------
A|--------------------------------------------------------------------------------------------------
E|--------------------------------------------------------------------------------------------------

e|-----------17--------------------------------------------20b22--20b22--20--19----19-19-19-21-22-22b24-22b24--
B|--/17--17------20b22r20p17-------17h20p17-------17h20p17-----------------------------------------------------
G|---------------------------19b21----------19b21--------------------------------------------------------------
D|-------------------------------------------------------------------------------------------------------------
A|-------------------------------------------------------------------------------------------------------------
E|-------------------------------------------------------------------------------------------------------------

I can't do that lick at the end :lol: so I don't know how accurate it is. Feel free to make corrections.
« Last Edit: January 03, 2011, 07:54:20 AM by boykun »

Offline mixedmedia

Re: The AKB48 Guitar Tabs / Sheet Music and Performances Thread
« Reply #22 on: January 05, 2011, 11:21:47 PM »
Bought new strings (D string mysteriously unraveled while in the case!) and got a capo but got pwned trying to figure out what hitop777 was trying to do on his version of Ponytail! Guess I'll start by working through the tabs posted here first (on the easier to play electric) before attempting the fingerpicking madness.

Offline aoi_sora

Re: The AKB48 Guitar Tabs / Sheet Music and Performances Thread
« Reply #23 on: January 07, 2011, 12:22:47 PM »
 :bow: :bow: :bow: :bow:
boykun thank you!!!!
 :cow: :cow: :cow:

Offline boykun

  • トマトケチャップ 100% OK
  • Member+
  • Posts: 3615
  • Thanks: 2028
Re: The AKB48 Guitar Tabs / Sheet Music and Performances Thread
« Reply #24 on: January 08, 2011, 05:49:40 AM »
I just learned this today, so I thought I'd tab it

大声ダイヤモンド Oogoe Diamond
Code: [Select]
AKB48 大声ダイヤモンド
Guitar tab


INTRO

(optional)
e|--5~---------------------
B|--5~---------------------
G|--6~---------------------
D|--7~---------------------
A|--7~---\15-tremolo-pick-- slide down~
E|--5~---\15-tremolo-pick-- slide down~

e|----------------10----------------------------------------------------
B|--/12-----10-12----12--10---------------------------------------------
G|-------11------------------11--7-9-----7--9--15p14-15p14-15p14-15p14--
D|------------------------------------9--------16p14-16p14-16p14-16p14--
A|----------------------------------------------------------------------
E|----------------------------------------------------------------------

e|----------------10----------------------------------------
B|--/12-----10-12----12--10---------------------------------
G|-------11------------------11--7-9-----7--9--15p14-15p14--
D|------------------------------------9--------16p14-16p14--
A|----------------------------------------------------------
E|----------------------------------------------------------



VERSE (Palm mute here and there for all that fun stuff)
    D - C#m - Bm - A - G - F#m - Em - A
e|-----------------------------------------------------------
B|-----------------------------------------------------------
G|-----------------------------------------------------------
D|--7--------7--------4--------2-----------------------------
A|--5--------4--------2--------0--------5--------5--------2--
E|--------------------------------------3--------2--------0--

    G - F#m - Bm - D - Em - A - D
e|---------------------------------------------------------------------------------------
B|---------------------------------------------------------------------------------------
G|----------------------------7/9--11--7--------------------12-12-12-12-11--9--9--14-11--
D|--------------------4------------------------------------------------------------------
A|--5--------4--------2-------5/7---9--5--2--------7--------10-10-10-10--9--7--7--12--9--
E|--3--------2----------------------------0--------5-------------------------------------

    F#m - Bm - F#m - Bm - F#m - Bm - F#m - Bm
e|------------------------------------------------------------------------------------------------------------
B|------------------------------------------------------------------------------------------------------------
G|------------------------------------------------------------------------------------------------------------
D|----------------------------2--4-4-2-4---2--4-4-2-4-----------------------------2--4-4-2-4---2--4-4-2-4--2--
A|--2--4-4-2-4---2--4-4-2-4---0--2-2-0-2---0--2-2-0-2---2--4-4-2-4---2--4-4-2-4---0--2-2-0-2---0--2-2-0-2--0--
E|--0--2-2-0-2---0--2-2-0-2-----------------------------0--2-2-0-2---0--2-2-0-2-------------------------------

    Em - Fm - G - A
e|-------0--0-------0-------2--2-------2-------------------------------------------------
B|------------3---3--------------5-2-5---------------3-----------------------------------
G|--------------4-------------------------4~-----3-----3---------------------------------
D|---------------------4~-----------------5~---5---5-----5--7--7--7-7--7-----------------
A|--2~-----------------4~-----------------5~----------------7--7--7-7--7--------5-5-7-5--
E|--0~-----------------2~-----------------3~----------------5--5--5-5--5--5-7-5----------

    A
e|-----------------
B|------------7-8--
G|------6-7-9------
D|--7-9------------
A|-----------------
E|-----------------



CHORUS
    Bb - C - A - Dm | Bb - C - A - Dm - F
e|----------------------------------|-----------------------------------
B|----------------------------------|-----------------------------------
G|-----------5-----------------7----|-------------5---------------------
D|--8--------5--------7--------7----|----8--------5--------7--7--7--10--
A|--8--------3--------7--------5----|----8--------3--------7--4--5---8--
E|--6-----------------5-------------|----6-----------------5------------

    Bb - C - A - Dm | Gm7 - A - Bb
e|---------------------------------|--------------------------------------
B|---------------------------------|--------------------------------------
G|-----------5---------------------|--------------------------------------
D|--8--------5--------7--9/10\9-7--|--5--------7--------8--7--8--7--8-10--
A|--8--------3--------7--7/-8\7-5--|--5--------7--------8--7--8--7--8-10--
E|--6-----------------5------------|--3--------5--------6--5--6--5--6--8--

    Dm
e|------------------------------
B|------------------------------
G|--10--14--12--10-10-10-14-12--
D|------------------------------
A|---8--12--10---8--8--8-12-10--
E|------------------------------



INTRO again



VERSE again



CHORUS again



BRIRGE
    Dm - A - G - A | Dm - A - G - A
e|-----------------------------------------------------|-----------------------------------------------------
B|-----------------------------------------------------|-----------------------------------------------------
G|--7--------5--------/14-12-10----10-12-/14-12-10-----|--7--------5--------/14-12-10----10-12-/14-12-10-----
D|--7--------5--------/14-12-10-12-10-12-/14-12-10-12--|--7--------5--------/14-12-10-12-10-12-/14-12-10-12--
A|--5--------3------------------12-----------------12--|--5--------3------------------12-----------------12--
E|-----------------------------------------------------|-----------------------------------------------------

    G - Dm - A - G
e|---------------------------------------------------------------
B|---------------------------------------------------------------
G|-----------7~----------------12-12--12-12--12-12--11-11--11-9--
D|--5~-------7~-------7------------------------------------------
A|--5~-------5~-------7--------10-10--10-10--10-10---9--9---9-7--
E|--3~----------------5------------------------------------------

    Bb - C - A - Dm - Bb - C - A - Dm - F
e|--------------------------------------------------------------------
B|--------------------------------------------------------------------
G|-----------5-----------------7--5--3--------5-----------------------
D|--8--------5--------7--------7--5--3--------5--------7--7--7----10--
A|--8--------3--------7--------5--3--1--------3--------7--4--5-----8--
E|--6-----------------5--------------------------------5--------------



CHORUS again



CHORUS/END
    Bb - C - A - Dm | Bb - C - A - Dm - F
e|----------------------------------|-----------------------------------
B|----------------------------------|-----------------------------------
G|-----------5-----------------7----|-------------5---------------------
D|--8--------5--------7--------7----|----8--------5--------7--7--7--10--
A|--8--------3--------7--------5----|----8--------3--------7--4--5---8--
E|--6-----------------5-------------|----6-----------------5------------

    Bb - C - A - Dm | G - A - Bb - D
e|---------------------------------|-----------------------------------------
B|---------------------------------|-----------------------------------------
G|-----------5---------------------|-----------------------------------------
D|--8--------5--------7--9/10\9-7--|--5--------7--------8--7--8--7--8-10-12--
A|--8--------3--------7--7/-8\7-5--|--5--------7--------8--7--8--7--8-10-12--
E|--6-----------------5------------|--3--------5--------6--5--6--5--6--8-10--


e|--13p10-13p10-------13p10-13p10-------13p10-13p10-------13p10-13p10-------13p10-------13p10----------------------
B|--------------13p10-------------13p10-------------13p10-------------13p10-------13p10-------13p10----------------
G|--------------------------------------------------------------------------------------------------14-12-10-7--\--
D|--------------------------------------------------------------------------------------------------14-12-10-7--\--
A|-----------------------------------------------------------------------------------------------------------------
E|-----------------------------------------------------------------------------------------------------------------



Not too sure on some of the chords. Once again feel free to make corrections.


« Last Edit: January 08, 2011, 05:57:50 AM by boykun »

Offline hibachifinal

  • リトル・プリンセス
  • ecchi
  • Member+
  • Posts: 2765
  • Thanks: 5244
  • Super Fab Imouto II Turbo
Re: The AKB48 Guitar Tabs / Sheet Music and Performances Thread
« Reply #25 on: January 09, 2011, 02:28:07 AM »
^nice work boykun  :thumbup
that's pretty much the same way i play it (but i like doing the trumpet melody part in lower notes)

______

how bout some classics? B3's

Pajama Drive
Code: [Select]

AKB48 - パジャマドライブ
チームB 3rd Stage「パジャマドライブ」

INTRO/MAIN
A - Dm - Bb
e|---------------------------------------------------|
B|---------------------------------------------------|
G|---------------------------------------------------|
D|--7-------7--5--10--12--7--5--7--5--------5--------|
A|--5----5----------------------------5--8-----8--5--|
E|--5------------------------------------------------|

C - Bb - A
e|------------------------------------------------------------|
B|---------------------------------8s10--8------8-------------|
G|------------------------------------------10-----10--9------|
D|-----8s10--8--10--12--10--8--7--------------------------10--|
A|--7---------------------------------------------------------|
E|------------------------------------------------------------|

Dm - Bb
e|----------------------------------------------|
B|----------------------------------------------|
G|----------------------------------------------|
D|-----7--5--10--12--7--5--7--5--------5--------|
A|--5----------------------------5--8-----8--5--|
E|----------------------------------------------|

C - Bb - A
e|------------------------------------|
B|------------------------------------|
G|------------------------------------|
D|-----8s10--8--10--12--10--8--7---7--|
A|--7------------------------------7--|
E|---------------------------------5--|



VERSE-I (1)
e|-------------------------------|
B|--3---3---3---3-------------3--|
G|--2---2---2---2-------2-----2--|
D|--------------------0----0--0--|
A|--0---3---0---3---0---------0--|
E|-------------------------------|

VERSE-II
e|--------------------|
B|--------------------|
G|--------------------|
D|--9----6----9----6--|
A|--9----7----9----7--|
E|--7----4----7----4--|

VERSE-III
e|--------------------------------------|
B|--------------------------------------|
G|--12--11--9--11--9----11--9--7--9--7--|
D|--------------------------------------|
A|--10--9---7--9---7----9---7--5--7--5--|
E|--------------------------------------|

e|-------------------------------------|
B|-------------------------------------|
G|--10----11--12--14--11--12--14---14--|
D|-------------------------------------|
A|--8-----9---10--12--9---10--12---12--|
E|-------------------------------------|

CHORUS
e|--------------------------------------------|
B|----------------------10-11-10----10--------|
G|--7------------10--------------12----12-10--|
D|--7---8---10---10---------------------------|
A|--5---8---10---8----------------------------|
E|------6---8---------------------------------|

e|---------------------------------------------|
B|---------------------------------------------|
G|--7------------------------------------------|
D|--7---8---10---8----7-8-7-8-7-8-7-8-7-5-3-2--|
A|--5---8---10---8-----------------------------|
E|------6---8----6----5-6-5-6-5-6-5-6-5-3-1-0--|

BACK TO INTRO

VERSE-I (2)
e|----------------------------|
B|--3---3--------3--3---3--3--|
G|--2---2------2----2---2--2--|
D|---------0---------------0--|
A|--0---3----3------0---3--0--|
E|----------------------------|

BACK TO VERSE-II

BACK TO VERSE-III

BACK TO CHORUS

BRIDGE
e|----------------5--------------|
B|----------6--8-----8--6--5-----|
G|--7---5---------------------7--|
D|--7---5------------------------|
A|--5---3------------------------|
E|-------------------------------|

e|-----------------------------|
B|--3----3---------3-----3--3--|
G|--2------2---------2---2--0--|
D|-----0-------0---------0--0--|
A|---------------3-------0--0--|
E|-----------------------------|

e|---------------------------------------------------------------|
B|---------------------------------------------------------------|
G|---------10--7----15---------------12-13-14-15-14-15-14-15-13--|
D|--8--10--10--7------------12-14-15-----------------------------|
A|--8--10--8---5----13---15----------------12-13-12-13-12-13-12--|
E|--6--8---------------------------------------------------------|

CAR HORN
e|--5--|
B|--5--|
G|-----|
D|-----|
A|-----|
E|-----|

BACK TO CHORUS

BACK TO MAIN

MAIN-II
e|---------------------------------------------------|
B|-----10--8--13--15--10--8--10--8---------8---------|
G|--7-------------------------------7--10-----10--7--|
D|---------------------------------------------------|
A|---------------------------------------------------|
E|---------------------------------------------------|

e|-----------------------------------|
B|-----11s13-11--13--15--13--11--10--|
G|--9--------------------------------|
D|-----------------------------------|
A|-----------------------------------|
E|-----------------------------------|


e|--------------------------------------|-----|
B|--------------------------------------|-----|
G|--14-15-14-15-14-15-14-15-14-12-10-9--|--7--|
D|--------------------------------------|--7--|
A|--12-13-12-13-12-13-12-13-12-10-8--7--|--5--|
E|--------------------------------------|-----|

END
e|-----|
B|-----|
G|--5--|
D|--5--|
A|--5--|
E|--5--|
http://destructionbaby.wordpress.com/2011/01/08/tab-pajama-drive/

more of a setup to play with a guitar solo.. or the aim of singing+playing. fun to play if you strum WITH the beat, fast. :jerk:

シャイニーくももかがやくよKY PP FCpixiv@hibachifinal

Offline boykun

  • トマトケチャップ 100% OK
  • Member+
  • Posts: 3615
  • Thanks: 2028
Re: The AKB48 Guitar Tabs / Sheet Music and Performances Thread
« Reply #26 on: January 13, 2011, 12:23:32 AM »
Thanks. ^ I should try that out. Not too familiar with all the stage songs yet.


In the meantime, I continued Oogoe Diamond with bass tabs lol. I don't know if anyone plays bass, but I found this a bit more enjoyable to play than guitar.

大声ダイヤモンド Oogoe Diamond bass
Code: [Select]
AKB48 大声ダイヤモンド Oogoe Diamond
Bass tab


INTRO

G|------------------------
D|--12--9-----------------
A|---------12--9----------
E|----------------12-10\--

G|--------------------------------------------------------------------
D|--------------------------------------------------------------------
A|-------------------------------------7--7---5---5-7-----------------
E|--7--7--0-5-0-5-7--7--0-5-0-5-0-5-7-------7---7-----5--5--5--0-3-5--

G|--------------------------------------------------------------------
D|--------------------------------------------------------------------
A|-------------------------------------7--7---5---5-7-----------------
E|--7--7--0-5-0-5-7--7--0-5-0-5-0-5-7-------7---7-----5--5--5--0-3-5--



VERSE

G|----------------------------------------------------------------------------------------------------------------
D|----------------------------------------------------------------------------------------------------------------
A|----------------------------------------------------------------------------------------------------------------
E|--10--10--10--10-0-9--9--9--9-0-9-0-7--7--7--7-0-5--5--5--5-0-5-0-3--3--3--3-0-2--2--2--2-0-2-(x)-(x)-0----5----

G|----------------------|--------------------------------------------------------------
D|----------------------|-----9-----9------7-----7-----12-------12--------12-------12--
A|----------------------|--------------------------------------------------------------
E|--3----2----5/7----0--|--0----0-0---5--5---5-5---10-----10-10----10--10----10-10-----

G|-------------------------------------------------------------------------------------------------------------------
D|-------------------------------------------------------------------------------------------------------------------
A|--7--9-9-7-9----7--9-9-7-9--------------------------------7--9-9-7-9----7--9-9-7-9---------------------------------
E|------------------------------5--7-7-5-7----5--7-7-5-7--------------------------------5--7-7-5-7----5--7-7-5-7--5--

G|-------------------------------------------------------------------------------------|--------------
D|-------------------------------------------------------------------------------------|--------------
A|--7---5-7----5-7-7---5-7----5-7/9---7-9----7-9-9---7-9----7-9------------------------|-------5-5-7--
E|----7------7-------7------7-------9------9-------9------9-----3--------5--5--5--5-5--|-5-7-7--------



CHORUS

G|---------------------------------------------
D|--------------------|------------------------
A|--1----3----0----5--|--1----3----0--4--5--3--
E|---------------------------------------------

G|-----------------------|----------------------------
D|-----------------------|--5----7----8-7-8-7-8-10-9--
A|--1----3----0----5--3--|----------------------------
E|-----------------------|----------------------------

G|---------------------
D|---------------------
A|--5--0-0-1--0-0-1-3--
E|---------------------



INTRO again



VERSE again



CHORUS again



BRIDGE

G|--------------------------------|--------------------------------|------------------------------------------------------
D|--------------------------------|--------------------------------|------------------------------------------------------
A|--5----3---------2-0-3-0-4-0-5--|--5----3---------2-0-3-0-4-0-5--|--------5~------------------5-5--5-5--5-5--3-3--3--3--
E|------------3-------------------|------------3-------------------|--3~----------5--5--5-5-5-5---------------------------

G|---------------------------------------------
D|---------------------------------------------
A|--1~---3~---0~---5~-3~-1~---3----0--4--5--3--
E|---------------------------------------------



CHORUS again



CHORUS/END

G|---------------------------------------------
D|--------------------|------------------------
A|--1----3----0----5--|--1----3----0--4--5--3--
E|---------------------------------------------

G|-----------------------|-----------------------------|---------------
D|-----------------------|--5----7----8-7-8-7-8-10-12--|--10-10-10-12--
A|--1----3----0----5--3--|-----------------------------|---------------
E|-----------------------|-----------------------------|---------------





And a cover
大声ダイヤモンド べース


Excuse my crappy bass. Don't have a bass amp either XD


Offline SomethingWild

  • ほっといてよ~ うざいんだよ
  • Subcru
  • Member+
  • Posts: 20000
  • Thanks: 34386
  • 君の泣き顔は見たくないよ!
Re: The AKB48 Guitar Tabs / Sheet Music and Performances Thread
« Reply #27 on: January 13, 2011, 03:51:38 PM »
^Good job! I never realized the bass part was so ...happy? sounding  XD

I re-did Love Wars... slightly better sound this time.

Kasai Tomomi / 河西智美 - Love Wars

Offline boykun

  • トマトケチャップ 100% OK
  • Member+
  • Posts: 3615
  • Thanks: 2028
Re: The AKB48 Guitar Tabs / Sheet Music and Performances Thread
« Reply #28 on: January 14, 2011, 04:34:42 AM »
^ Thanks. The bass line is kind of difficult to pick out when listening to the song. After listening to it again, I heard some notes that I missed. Will go back and fix that.

Awesome cover, Ballin sticker :thumbup


Offline SomethingWild

  • ほっといてよ~ うざいんだよ
  • Subcru
  • Member+
  • Posts: 20000
  • Thanks: 34386
  • 君の泣き顔は見たくないよ!
Re: The AKB48 Guitar Tabs / Sheet Music and Performances Thread
« Reply #29 on: January 24, 2011, 02:34:38 PM »
Matsui Rena - Kareha no Station / 松井玲奈 - 枯葉のステーション

Offline hibachifinal

  • リトル・プリンセス
  • ecchi
  • Member+
  • Posts: 2765
  • Thanks: 5244
  • Super Fab Imouto II Turbo
Re: The AKB48 Guitar Tabs / Sheet Music and Performances Thread
« Reply #30 on: January 28, 2011, 10:23:13 PM »
everyone already knows how to play this im sure, but since maliciel requested (aka was lazy), here...


heavy rotation (ヘビーローテーション)
Code: [Select]
AKB48 – ヘビーローテーション
Single – ヘビーローテーション

GUITAR 1 Rhythm
INTRO
e|---------------------------------|
B|-------------------------10--12--|
G|--9--8--11--9--8---9--8--9---11--|
D|--9--9--9---9--9---9--9--7---9---|
A|--7--7--7---7--7---7--7----------|
E|---------------------------------|

e|--------------------------|
B|--------------------------|
G|--9-----6--1--------------|
D|--9--6--6--2--4-5-6-7--9--|
A|--7--6--4--2--4-5-6-7--9--|
E|-----4--------2-3-4-5--7--|

e|--------------------|----------------------|
B|--------------2-----|----------------------|
G|--9--9--6--4--2--4--|--9--6-------------9--|
D|--9--9--6--4--2--4--|--9--6--7--9-(x2)--9--|
A|--7--8--4--2--0--2--|--7--4--7--9-------7--|
E|--------------------|--------5--7----------|

VERSE
e|--------------------------|
B|--------------2-----------|
G|--9-----6--4--2--4--------|
D|--9--6--6--4--2--4--(x2)--|
A|--7--6--4--2-----2--------|
E|-----4--------------------|

e|-----------------------------|
B|--------------------2--------|
G|--------9--9--6--4--2-----4--|
D|--7--9--9--9--6--4--2--4--4--|
A|--7--9--7--8--4--2-----4--2--|
E|--5--7-----------------2-----|

CHORUS
e|-----------------------|
B|-----------------------|
G|--9-----6--1-----------|
D|--9--6--6--2--4-5-6-7--|
A|--7--6--4--2--4-5-6-7--|
E|-----4--------2-3-4-5--|

e|-----------------------------|
B|--------------------2--------|
G|--------9--9--6--4--2-----4--|
D|--7--9--9--9--6--4--2--4--4--|
A|--7--9--7--8--4--2-----4--2--|
E|--5--7-----------------2-----|

e|-----------------------|
B|-----------------------|
G|--9-----6--1-----------|
D|--9--6--6--2--4-5-6-7--|
A|--7--6--4--2--4-5-6-7--|
E|-----4--------2-3-4-5--|

e|--------------------------|
B|--------------------2-----|
G|--------9--9--6--4--2--4--|
D|--7--9--9--9--6--4--2--4--|
A|--7--9--7--8--4--2-----2--|
E|--5--7--------------------|

e|---------------------------------|
B|-------------------------10--12--|
G|--9--8--11--9--8---9--8--9---11--|
D|--9--9--9---9--9---9--9--7---9---|
A|--7--7--7---7--7---7--7----------|
E|---------------------------------|

Back to VERSE

Back to CHORUS

Cut to
BRIDGE
e|------------------------------------|
B|------------------------------------|
G|--9--6---------9--9--6-----------9--|
D|--9--6--7--9---9--9--6--9--7--9--9--|
A|--7--4--7--9---7--8--4--9--7--9--7--|
E|--------5--7------------7--5--7-----|

e|----------------------------------7--------|
B|------------10p9--------------------9------|
G|----9---9--------9-------8---8--------8----|
D|--9---9---9--------9---6---6----6-------6--|
A|-------------------------------------------|
E|-------------------------------------------|

e|---------------------13-------------------|
B|---------12-------12----------------------|
G|------11-----s10--------------------------|
D|--------------------------11--13--14--11--|
A|--s9----------------------9---11--12--9---|
E|------------------------------------------|

e|-------------------------------------------|
B|-------------------------------------------|
G|---------9--9--8--6------------11--14--16--|
D|--7--10--9--9--8--6--7--10--9--------------|
A|--7--10--7--7--6--4--7--10--9--9---12--14--|
E|--5--8---------------5--8---7--------------|

Back to CHORUS

END

GUITAR 2 Lead
INTRO (Guitar 1)
e|---------------------------------|
B|-------------------------10--12--|
G|--9--8--11--9--8---9--8--9---11--|
D|--9--9--9---9--9---9--9--7---9---|
A|--7--7--7---7--7---7--7----------|
E|---------------------------------|

e|---------------------------|
B|--9-10p9--9-10p9--9--10p9--|
G|--9-------9-------9--------|
D|--9-------9-------11-------|
A|--7-------6-------11-------|
E|------------------9--------|

e|-----------------------------------------|
B|-----------------------------------------|
G|--11--13--11--9--8--9--11--12--13--14----|
D|-----------------------------------------|
A|--9---11--9---7--6--7--9---10--11--12----|
E|-----------------------------------------|

e|----------------------------------|
B|-----b10--------------------------|
G|--b9-----b9-9----9--9--6--13--14--|
D|--------------9--9--9--6--13--14--|
A|-----------------7--6--4--11--12--|
E|----------------------------------|

e|-----------------------------------|
B|--12--9-9h10-9-------------10-9-7--|
G|---------------11-9------9---------|
D|--------------------11-7-----------|
A|-----------------------------------|
E|-----------------------------------|

e|--12----9----------------------------|
B|--12--9---12-10-9-10-9---------------|
G|-----------------------11-8-9-9-9-9--|
D|-------------------------------------|
A|-------------------------------------|
E|-------------------------------------|

VERSE-I
e|--7---|-----------------|------7-------7------|
B|--7---|-----------------|--7-------7-----7----|
G|--9---|-----8-11-9-8-9--|----9---9---9-----9--|
D|--9---|--s9-------------|---------------------|
A|------|-----------------|---------------------|
E|------|-----------------|---------------------|

e|-----------------|------------------|
B|-----------------|--2---------------|
G|--------------11-|--2--2--4--8--11--|
D|--------------11-|--2--2------------|
A|--slide back--9--|--0--0--2--6--9---|
E|-----------------|--0--2------------|

CHORUS
e|---------------------------|
B|--9-10p9--9-10p9--9--10p9--|
G|--9-------9-------9--------|
D|--9-------9-------11-------|
A|--7-------6-------11-------|
E|------------------9--------|

e|-----------------------------------------|
B|-----------------------------------------|
G|--11--13--11--9--8--9--11--12--13--14----|
D|-----------------------------------------|
A|--9---11--9---7--6--7--9---10--11--12----|
E|-----------------------------------------|

e|----------------------------------|
B|-----b10--------------------------|
G|--b9-----b9-9----9--9--6--13--14--|
D|--------------9--9--9--6--13--14--|
A|-----------------7--6--4--11--12--|
E|----------------------------------|

e|-------------------7-7-11-11-12-12-14-14--|
B|---------7-7-10-10------------------------|
G|-----8-8----------------------------------|
D|-9-9--------------------------------------|
A|------------------------------------------|
E|------------------------------------------|

e|---------------------------|
B|--9-10p9--9-10p9--9--10p9--|
G|--9-------9-------9--------|
D|--9-------9-------11-------|
A|--7-------6-------11-------|
E|------------------9--------|

e|-----------------------------------------|
B|-----------------------------------------|
G|--11--13--11--9--8--9--11--12--13--14----|
D|-----------------------------------------|
A|--9---11--9---7--6--7--9---10--11--12----|
E|-----------------------------------------|

e|----------------------------------|
B|-----b10--------------------------|
G|--b9-----b9-9----9--9--6--13--14--|
D|--------------9--9--9--6--13--14--|
A|-----------------7--6--4--11--12--|
E|----------------------------------|

e|---------------------------------------|
B|-------------------------10--12--------|
G|--9--8--11--9--8---9--8--9---11--9--8--|
D|--9--9--9---9--9---9--9--7---9---9--9--|
A|--7--7--7---7--7---7--7----------7--7--|
E|---------------------------------------|

VERSE-II
e|--7---|----9-----------11-----|
B|--7---|------10-----12--------|
G|--9---|--9------s11-------11--|
D|--9---|-----------------------|
A|------|-----------------------|
E|------|-----------------------|

e|--12--11----------------------------------------11--|
B|----------12--9--12--9-----------------10----12-----|
G|------------------------9------------9----11--------|
D|---------------------------11--9--11----------------|
A|----------------------------------------------------|
E|----------------------------------------------------|

e|-----------------|------------------|
B|-----------------|--2---------------|
G|--------------11-|--2--2--4--8--16--|
D|--------------11-|--2--2------------|
A|--slide back--9--|--0--0--2--6--14--|
E|-----------------|--0--2------------|

Back to CHORUS

Cut to
BRIDGE
e|----------------------------------------------|
B|----------------------------------------------|
G|--9--8--9--8--9--13--11-13-11--9-8-9-13-11-9--|
D|----------------------------------------------|
A|--7--6--7--6--7--11--9--11-9---7-6-7-11-9--7--|
E|----------------------------------------------|

e|------------------------------12------9--------------|
B|-----12-----12-----9--10--14------12-----10--13--12--|
G|--9------8------7------------------------------------|
D|-----------------------------------------------------|
A|-----------------------------------------------------|
E|-----------------------------------------------------|

Back to CHORUS

ENDING
e|------------7--|
B|--14---16---7--|
G|--14---16---9--|
D|--14---16---9--|
A|--12---14---7--|
E|---------------|
blog link - http://destructionbaby.wordpress.com/2011/01/28/tab-heavy-rotation/


this is for 2 guitars... just mix and match what parts you like when doing on one guitar :lol:

シャイニーくももかがやくよKY PP FCpixiv@hibachifinal

Offline boykun

  • トマトケチャップ 100% OK
  • Member+
  • Posts: 3615
  • Thanks: 2028
Re: The AKB48 Guitar Tabs / Sheet Music and Performances Thread
« Reply #31 on: January 29, 2011, 08:23:46 AM »
namida no seesaw game bass


Glorious string buzzzzz

Offline Scatterbrain

Re: The AKB48 Guitar Tabs / Sheet Music and Performances Thread
« Reply #32 on: January 30, 2011, 01:17:01 AM »
Guitar tabs of songs that doesn't have guitars make me a little fearful  :sweatdrop:
Idols, idols everywhere >.<

Offline hibachifinal

  • リトル・プリンセス
  • ecchi
  • Member+
  • Posts: 2765
  • Thanks: 5244
  • Super Fab Imouto II Turbo
Re: The AKB48 Guitar Tabs / Sheet Music and Performances Thread
« Reply #33 on: January 30, 2011, 04:33:55 PM »
Guitar tabs of songs that doesn't have guitars make me a little fearful  :sweatdrop:

anything in particular you have in mind?

シャイニーくももかがやくよKY PP FCpixiv@hibachifinal

Offline Scatterbrain

Re: The AKB48 Guitar Tabs / Sheet Music and Performances Thread
« Reply #34 on: January 31, 2011, 03:31:14 AM »
Guitar tabs of songs that doesn't have guitars make me a little fearful  :sweatdrop:

anything in particular you have in mind?

I don't know, it is just an idea. It is like... well... i just don't accept that kind of stuff  :nervous :panic:
Idols, idols everywhere >.<

Offline SomethingWild

  • ほっといてよ~ うざいんだよ
  • Subcru
  • Member+
  • Posts: 20000
  • Thanks: 34386
  • 君の泣き顔は見たくないよ!
Re: The AKB48 Guitar Tabs / Sheet Music and Performances Thread
« Reply #35 on: January 31, 2011, 09:57:03 AM »
^Music is music. You can play any song on any instrument and that's pretty cool imo.

Offline mixedmedia

Re: The AKB48 Guitar Tabs / Sheet Music and Performances Thread
« Reply #36 on: January 31, 2011, 12:01:23 PM »
^ except maybe triangles or cymbals.

If someone can play "Bohemian Rhapsody" on a ukulele then guitar-ifying a non guitar song can't be that bad.

Offline boykun

  • トマトケチャップ 100% OK
  • Member+
  • Posts: 3615
  • Thanks: 2028
Re: The AKB48 Guitar Tabs / Sheet Music and Performances Thread
« Reply #37 on: February 01, 2011, 04:55:44 PM »
Mostly chords... I think. This one sounds close enough, lol.

Cloudy Sky
Code: [Select]
no3b 小嶋陽菜 Cloudy Sky
Guitar Chords



INTRO

e|---3----------3-------------------3--
B|------1-------------0----------0-----
G|---------0-------0----------0--------  x 4
D|-------------------------------------
A|--(3)--------(2)---------------------
E|------------------------(3)----------

e|--3--------3------------3--------2-------------------3----3~--
B|-----3----------3----------3----------3-----------3-------3~--
G|--------5----------5----------5----------4-----5----------5~--
D|--------------------------------------------5-------------5~--
A|----------------------------------------------------------3~--
E|--------------------------------------------------------------

C Bm G
C Bm G
C Bm G
Em D




VERSE

C Bm G
C Bm G
C Bm G
Em D

C D
G G/F# Em

C Bm Em A
C D




CHORUS

C G D Em
C G Bm Em
C G D Em
C G D




INTERLUDE

C Bm G
C Bm G
C Bm G
C Bm G




VERSE again




CHORUS again




SOLO/BRIDGE

e|--------------------------------------10--------------17-14-15--
B|--15b17--15b17r15p13-15-15-----/12-13----13-12-13-/15-----------
G|----------------------------------------------------------------
D|----------------------------------------------------------------
A|----------------------------------------------------------------
E|----------------------------------------------------------------

e|--14-15p14----------17b19-17----15-15-15--14-15-17--
B|-----------15-17------------------------------------
G|----------------------------------------------------
D|----------------------------------------------------
A|----------------------------------------------------
E|----------------------------------------------------

C Bm G
C Bm




CHORUS

C G D Em
C G Bm Em
C G D Em
C G D




OUTRO

C Bm G
C Bm G
C Bm G




Offline mixedmedia

Re: The AKB48 Guitar Tabs / Sheet Music and Performances Thread
« Reply #38 on: February 18, 2011, 10:38:21 PM »
Not me but saw a link to this on another forum and felt this was worth a watch.  :shocked
AKB48 GUITAR MEDLEY



Offline boykun

  • トマトケチャップ 100% OK
  • Member+
  • Posts: 3615
  • Thanks: 2028
Re: The AKB48 Guitar Tabs / Sheet Music and Performances Thread
« Reply #39 on: February 23, 2011, 09:41:25 AM »
^ Damn, that guy is amazing.



So here's something I did that pales in comparison.

野菜シスターズ ベース / AKB48 cover


:lol:

JPHiP Radio (51/200 @ 128 kbs)     Now playing: No Regret Life - Melody