JPHiP Radio (23/200 @ 128 kbs)     Now playing: Halcali - Tip Taps Tip

Author Topic: The SCANDAL Tabs/Music Score Thread  (Read 39582 times)

Offline boykun

  • トマトケチャップ 100% OK
  • Member+
  • Posts: 3537
Re: The SCANDAL Tabs/Music Score Thread
« Reply #20 on: November 12, 2009, 10:49:44 PM »

Offline suicune141

  • Member+
  • Posts: 394
Re: The SCANDAL Tabs/Music Score Thread
« Reply #21 on: November 12, 2009, 10:57:56 PM »
I think it would be a nice idea to make a separate thread specifically for covers.... Or just fanwork altogether. Maybe change the Graphics thread to... fanwork in general? Art, graphics, remixes, covers.... Hmm.

In any case, everyone who's performed the covers posted, really great job!  :shocked You guys are making me so jealous of your guitars.... TT^TT All I have is my stinky 1980's hand-me-down Casio.  :cry: It's great, but.... your guitars are freakin' awesome.  XD

Man... I'm having no luck searching for SCANDAL sheet music on my own. I did find that Shoujo S score a while back, but.... I don't know where exactly to look. Most of my resources are for anime and Western scores. Lamb, you're lucky for finding what you did at all~  :shocked

Offline nikid

  • Member+
  • Posts: 63
Re: The SCANDAL Tabs/Music Score Thread
« Reply #22 on: November 13, 2009, 02:52:33 PM »
thnkx lambchopsuey, awesome cover....


@ boykun: wow...nice cover  :thumbsup

Offline lambchopsuey

  • Member+
  • Posts: 326
  • Takamiy~
Re: The SCANDAL Tabs/Music Score Thread
« Reply #23 on: November 25, 2009, 11:42:42 PM »
Scan of the bandscore cover from Amazon:


Offline melon.PAN

  • 戦場ヶ原. ひたぎ
  • Member
  • Posts: 11
  • Jap Music forever!
Re: The SCANDAL Tabs/Music Score Thread
« Reply #24 on: December 02, 2009, 03:33:50 PM »
There is a bass player arround here who likes some bass tabs? I don't wanna upload them unless somebody wants it =P
If the answer is "yes", tell me which song, and I'm gonna make it as soon as I can.



Hihii!! I love scandal too! i been find the bass tab but none ):  so i wan some bass tab can u post it? or send me an email! with much thanks!  if u dont have then its ok! yeah! ty

-basically i want all song bass tab cuz everyone is great!

-scandal baby
-doll
-space ranger
-hitotudke
-sakura goodbye
-koi moyou
-beauteen!
-daydream
-s.l.magic
-fruits of love
-tokyo

AHHH so many! sorry for the inconvenients
« Last Edit: December 02, 2009, 04:45:21 PM by melon.PAN »

Offline SomethingWild

  • ほっといてよ~ うざいんだよ
  • Member+
  • Posts: 19662
  • 君の泣き顔は見たくないよ!
Re: The SCANDAL Tabs/Music Score Thread
« Reply #25 on: December 02, 2009, 03:51:15 PM »
^Welcome melon.PAN!

I don't have any bass tabs, but the best way to learn the songs is to figure them out by yourself. It might be challenging at first, but in the end it really contributes to your overall skills.

Offline melon.PAN

  • 戦場ヶ原. ひたぎ
  • Member
  • Posts: 11
  • Jap Music forever!
Re: The SCANDAL Tabs/Music Score Thread
« Reply #26 on: December 02, 2009, 04:19:37 PM »
There is a bass player arround here who likes some bass tabs? I don't wanna upload them unless somebody wants it =P
If the answer is "yes", tell me which song, and I'm gonna make it as soon as I can.




I reply to him - :-X

i juz a beginner for bass.. so i cant figure out  XD

ps. - i modified the previous entry and this (:
« Last Edit: December 02, 2009, 04:46:17 PM by melon.PAN »

Offline AREHO

  • Member+
  • Posts: 87
  • Bss lvr nd plyr
Re: The SCANDAL Tabs/Music Score Thread
« Reply #27 on: December 03, 2009, 01:13:06 AM »
hi melon.pan!

sorry for the late reply xD

Well, some of the songs you want, I haven't played them yet (like hitotsu dake, daydream, etc) XD

but the ones that i can put where:

-doll
-space ranger (the first that i made ^^)
-sakura goodbye *it was incomplete*
-koi moyou (i love it, every time that i heard the song wanna play it on the bass u_ú)
-beauteen (realy cool)
-and s.l magic

from your list that're the songs that I knew. As soon as i can, i'm gonna to upload one by one (it will be great if you, as a beginner you are, play it from the easiest to the hardest)

so the first that i'm gonna to put in this thread is Space Ranger

stay tunned! the tab will be early uploaded!


WE ARE CONECTED BY THE MUSIC

Offline melon.PAN

  • 戦場ヶ原. ひたぎ
  • Member
  • Posts: 11
  • Jap Music forever!
Re: The SCANDAL Tabs/Music Score Thread
« Reply #28 on: December 03, 2009, 04:05:06 PM »
yeah! i so happpy!   :D
tyty! for helping me to list starting from easiest. arigato~!

you are great and kind person!   :inlove:

Fighto Scandal!
« Last Edit: December 03, 2009, 04:07:20 PM by melon.PAN »

Offline melon.PAN

  • 戦場ヶ原. ひたぎ
  • Member
  • Posts: 11
  • Jap Music forever!
Re: The SCANDAL Tabs/Music Score Thread
« Reply #29 on: December 05, 2009, 08:45:40 AM »
Here's a guy covering MAMI's guitar part in "Kagerou":

Some mistakes (and no pick slide!), but still, pretty good. :)
He also plays bass and has other great vids, too. Check out his channel.

His channel has alot songs play by bass, i wonder where he get the tabs from xD

Offline lambchopsuey

  • Member+
  • Posts: 326
  • Takamiy~
Re: The SCANDAL Tabs/Music Score Thread
« Reply #30 on: December 05, 2009, 06:56:48 PM »
He learns it by ear. :thumbsup

Offline AREHO

  • Member+
  • Posts: 87
  • Bss lvr nd plyr
Re: The SCANDAL Tabs/Music Score Thread
« Reply #31 on: December 06, 2009, 09:39:23 PM »
He learns it by ear. :thumbsup

as lambchopsuey says, the best way to learn to play bass is from ear, (or seeing how someone elese plays it) not from a tab. (only if you wanna know some arranges or minimal details)

I suggest everyone to try it! btw i'm working on your space ranger tab, just got a week full of work and paryts <3

WE ARE CONECTED BY THE MUSIC

Offline AREHO

  • Member+
  • Posts: 87
  • Bss lvr nd plyr
Re: The SCANDAL Tabs/Music Score Thread
« Reply #32 on: December 08, 2009, 06:09:16 PM »
Double post!

Here it is the bass tab for Space Ranger
 
I make some basics specifications (sorry if someone knows it already, the tab has been made for novices ^^)

Code: [Select]
*The song start with bass, after the space noises XD*
G|---------------------------------------------|
D|---------------------------------------------|
A|---------------------------------------------|
E|--5-7-7-7-7-7-7-7-7--------------------------|         x4


*when the guitars start to play, it changes to...*

G|---------------------------------------------|
D|---------------------------------------------|
A|-----------------------5-----5-----7---------|
E|--5-7-7-7-7-7-5-7---5-7---7------------------|         x4


*start to sing and keep the same secuence, repeat all the figure (x3 & x1) x4 times*

G|---------------------------------------------|
D|---------------------------------------------|
A|---------------------------------------------|
E|--5-7-7-7-7-7-7-7-7--------------------------|      x3

G|---------------------------------------------|
D|---------------------------------------------|
A|-----------------------5-----5----7----------|
E|--5-7-7-7-7-7-5-7---5-7---7------------------|     x1

*when tomomi says "paatyyy" and before haruna starts to sing, the last figure finish like this *

G|---------------------------------------------|
D|---------------------------------------------|
A|-----------------------------5-5-7-7-9-------|
E|--5-7-7-7-7-7-7---7-7------------------------|

*inmediatly when haruna starts to sing*

G|---------------------------------------------|
D|---------------------------------------------|
A|-7-7---------------------7-7-----------------|
E|------7-7--5-5--5-7--------7-7/10------------|

* / means to slide

*then it starts again, playing first 2 times the second figure*

G|---------------------------------------------|
D|---------------------------------------------|
A|-----------------------5-----5-----7---------|
E|--5-7-7-7-7-7-5-7---5-7---7------------------|     x2


G|---------------------------------------------|
D|---------------------------------------------|
A|---------------------------------------------|
E|--5-7-7-7-7-7-7-7-7--------------------------|      x3

G|---------------------------------------------|
D|---------------------------------------------|
A|-----------------------5-----5----7----------|
E|--5-7-7-7-7-7-5-7---5-7---7------------------|     

*then the change is the same, but this time haruna ends and tomomi starts to sing again*

G|---------------------------------------------|
D|---------------------------------------------|
A|-----------------------------5-5-7-7-9-------|
E|--5-7-7-7-7-7-7---7-7------------------------|         

G|---------------------------------------------|
D|---------------------------------------------|
A|-7-7---------------------7-7-----------------|
E|------7-7--5-5--5-7--------7-7/10------------|


*and then "nagai todoku"*

G|---------------------------------------------|
D|---------------------------------------------|
A|---------------------------------------------|
E|-10/5-5/7-7/12-12----------------------------|       

G|---------------------------------------------|
D|---------------------------------------------|
A|---------------------9-11-9------------------|
E|-12/5-5/7-7/9-------------11-9-11------------|       
 
G|---------------------------------------------|
D|---------------------------------------------|
A|---------------------------------------------|
E|-5--5/7-7/12--12/5-5/7-----------------------|     

G|---------------------------------------------|
D|------------------------5------7----7--------|
A|--5-7-7-7-7-7-5-7---5-7----7-----------------|
E|---------------------------------------------|         x3

G|---------------------7-9-9-7---------------|
D|--------------------------------9-7--------|
A|-------------------------------------9-7---|
E|-5-7-7-7-7-7-7-----------------------------|     

*tomomi starts to sing again*

G|---------------------------------------------|
D|---------------------------------------------|
A|-----------------------5-----5----7----------|
E|--5-7-7-7-7-7-5-7---5-7---7------------------|      x3


G|---------------------------------------------|
D|---------------------------------------------|
A|---------------------------------------------|
E|-5-7-7-7-7-7--7--7--7------------------------|     

G|---------------------------------------------|
D|---------------------------------------------|
A|-7-7---------------------7-7-----------------|
E|------7-7--5-5--5-7--------7-7/10------------|     x2 *when plays the 2nd time, the end changes to*


G|--------------------------------------------------------------------|
D|--------------------------------------------------------------------|
A|-7------------------------------------------------------------------|
E|---7-7/10-10-10-10-12-10-12-10-12-10-12-10-12-----------------------|     

G|---------------------------------------------|
D|---------------------------------------------|
A|---------------------------------------------|
E|--5-7-7-7-7-7-7-7-7--------------------------|       x7 *when play the 4th time repeat 7-7-7 a few more times*

*and the end*

G|---------------------------------------------|
D|---------------------------------------------|
A|---------2------------4-5-6-7----------------|
E|-0-2-5----5-4-2---------------0--------------|


Sha' try to play it (it's very important you hear the song to make sure that arrangements are fine!)

If you (melon.PAN) or somebody got any doubt, just ask

Njoy!

WE ARE CONECTED BY THE MUSIC

Offline Heat_cloud

  • Member
  • Posts: 18
Re: The SCANDAL Tabs/Music Score Thread
« Reply #33 on: December 09, 2009, 03:42:06 AM »
Double post!

Here it is the bass tab for Space Ranger
 
I make some basics specifications (sorry if someone knows it already, the tab has been made for novices ^^)

Code: [Select]
*The song start with bass, after the space noises XD*
G|---------------------------------------------|
D|---------------------------------------------|
A|---------------------------------------------|
E|--5-7-7-7-7-7-7-7-7--------------------------|         x4


*when the guitars start to play, it changes to...*

G|---------------------------------------------|
D|---------------------------------------------|
A|-----------------------5-----5-----7---------|
E|--5-7-7-7-7-7-5-7---5-7---7------------------|         x4


*start to sing and keep the same secuence, repeat all the figure (x3 & x1) x4 times*

G|---------------------------------------------|
D|---------------------------------------------|
A|---------------------------------------------|
E|--5-7-7-7-7-7-7-7-7--------------------------|      x3

G|---------------------------------------------|
D|---------------------------------------------|
A|-----------------------5-----5----7----------|
E|--5-7-7-7-7-7-5-7---5-7---7------------------|     x1

*when tomomi says "paatyyy" and before haruna starts to sing, the last figure finish like this *

G|---------------------------------------------|
D|---------------------------------------------|
A|-----------------------------5-5-7-7-9-------|
E|--5-7-7-7-7-7-7---7-7------------------------|

*inmediatly when haruna starts to sing*

G|---------------------------------------------|
D|---------------------------------------------|
A|-7-7---------------------7-7-----------------|
E|------7-7--5-5--5-7--------7-7/10------------|

* / means to slide

*then it starts again, playing first 2 times the second figure*

G|---------------------------------------------|
D|---------------------------------------------|
A|-----------------------5-----5-----7---------|
E|--5-7-7-7-7-7-5-7---5-7---7------------------|     x2


G|---------------------------------------------|
D|---------------------------------------------|
A|---------------------------------------------|
E|--5-7-7-7-7-7-7-7-7--------------------------|      x3

G|---------------------------------------------|
D|---------------------------------------------|
A|-----------------------5-----5----7----------|
E|--5-7-7-7-7-7-5-7---5-7---7------------------|     

*then the change is the same, but this time haruna ends and tomomi starts to sing again*

G|---------------------------------------------|
D|---------------------------------------------|
A|-----------------------------5-5-7-7-9-------|
E|--5-7-7-7-7-7-7---7-7------------------------|         

G|---------------------------------------------|
D|---------------------------------------------|
A|-7-7---------------------7-7-----------------|
E|------7-7--5-5--5-7--------7-7/10------------|


*and then "nagai todoku"*

G|---------------------------------------------|
D|---------------------------------------------|
A|---------------------------------------------|
E|-10/5-5/7-7/12-12----------------------------|       

G|---------------------------------------------|
D|---------------------------------------------|
A|---------------------9-11-9------------------|
E|-12/5-5/7-7/9-------------11-9-11------------|       
 
G|---------------------------------------------|
D|---------------------------------------------|
A|---------------------------------------------|
E|-5--5/7-7/12--12/5-5/7-----------------------|     

G|---------------------------------------------|
D|------------------------5------7----7--------|
A|--5-7-7-7-7-7-5-7---5-7----7-----------------|
E|---------------------------------------------|         x3

G|---------------------7-9-9-7---------------|
D|--------------------------------9-7--------|
A|-------------------------------------9-7---|
E|-5-7-7-7-7-7-7-----------------------------|     

*tomomi starts to sing again*

G|---------------------------------------------|
D|---------------------------------------------|
A|-----------------------5-----5----7----------|
E|--5-7-7-7-7-7-5-7---5-7---7------------------|      x3


G|---------------------------------------------|
D|---------------------------------------------|
A|---------------------------------------------|
E|-5-7-7-7-7-7--7--7--7------------------------|     

G|---------------------------------------------|
D|---------------------------------------------|
A|-7-7---------------------7-7-----------------|
E|------7-7--5-5--5-7--------7-7/10------------|     x2 *when plays the 2nd time, the end changes to*


G|--------------------------------------------------------------------|
D|--------------------------------------------------------------------|
A|-7------------------------------------------------------------------|
E|---7-7/10-10-10-10-12-10-12-10-12-10-12-10-12-----------------------|     

G|---------------------------------------------|
D|---------------------------------------------|
A|---------------------------------------------|
E|--5-7-7-7-7-7-7-7-7--------------------------|       x7 *when play the 4th time repeat 7-7-7 a few more times*

*and the end*

G|---------------------------------------------|
D|---------------------------------------------|
A|---------2------------4-5-6-7----------------|
E|-0-2-5----5-4-2---------------0--------------|


Sha' try to play it (it's very important you hear the song to make sure that arrangements are fine!)

If you (melon.PAN) or somebody got any doubt, just ask

Njoy!

Honto ni arigatou gozaimasu! XD

i will try those tabs. ^^

anyway i would like to request the Sakura Goodbye Bass Tabs.

i learned alot of SCANDAL songs watching their live preformance, but Sakura Goodbye bass tabs are preatty hard to get just by watching Tomomi playing it XD
 so if anyone has the tabs, plz share here ^^ i will try to post some of the tabs i made ^^

Offline melon.PAN

  • 戦場ヶ原. ひたぎ
  • Member
  • Posts: 11
  • Jap Music forever!
Re: The SCANDAL Tabs/Music Score Thread
« Reply #34 on: December 10, 2009, 12:06:34 PM »
Double post!

Here it is the bass tab for Space Ranger
 
I make some basics specifications (sorry if someone knows it already, the tab has been made for novices ^^)

Sha' try to play it (it's very important you hear the song to make sure that arrangements are fine!)

If you (melon.PAN) or somebody got any doubt, just ask

Njoy!

Really thanks to u AREHO! (; but i have some problems to sync wif the song..

- each bar how many beats?
- x3, x4, x1 means repeat finished then onto the nxt segment?
- every segment is all connected? no pause segment withiin the song?

i have tot of sumthing which is, since i suppose we have the same song duration which is (3:31) do u mind putting the timing at the point when tab is inserted and end? becuz like the ending and some other part it quite hard to come in

 :nervous :nervous :nervous  sumimasen
« Last Edit: December 10, 2009, 12:09:17 PM by melon.PAN »

Offline AREHO

  • Member+
  • Posts: 87
  • Bss lvr nd plyr
Re: The SCANDAL Tabs/Music Score Thread
« Reply #35 on: December 10, 2009, 11:26:01 PM »
Hi!

Mmmm, i've made the tab without a specific beat timing!

x3, x4, x1 means the number of times that you must repeat before you continue to the next. (exept when I say that you must repeat the "A x4, B x1" two times, it means; A, A, A, A,, B A, A, A, A, B. ok? 

The pauses in the song is something that you must calculate by listening the song a few times. Space Ranger, in a exceptional case, have not pauses.

Play the bass some times without listening to the song, catch the rythm, and play it again. Listen the song without playing the bass, and try to remember how the arrangements sounds like. Practice and more practice, just ain't another way ;D

Wish you good luck, if I can make a decent video, will upload it so you can follow it.

 :cow:

WE ARE CONECTED BY THE MUSIC

Offline boykun

  • トマトケチャップ 100% OK
  • Member+
  • Posts: 3537
Re: The SCANDAL Tabs/Music Score Thread
« Reply #36 on: December 11, 2009, 07:09:21 AM »
I had some time today so I tried to tab out the bass part on Sakura Goodbye.
I wasn't able to find any live performances to refer to, so I mainly went by the song and PV, and tried to see where her hand was, lol.

I gotta say, out of the four of them with their respective instruments, Tomomi is probably the most skilled.

Code: [Select]
Sakura Goodbye bass tab

Intro
   Bb                                A                               G                                             F
G -----------------------------------------------------------------------------------------------------------------------------------
D -----------------------------------------------------------------------------------------------------------------------------------
A -------------------------------------------------7-8-8-8-8-8-5---------------------------------3-4-5-5-5-5-5-6-7-8---8-------------
E -6-6-6-6-6-6-6-6-6-6-8-8-10-10-6-6-5-5-5-5-5-6-8---------------8-5-3-3-3-3-3-3-3-3-3-3-3-3-3-3-------------------------1-1-3-3-5-5-
   Bb                                A                               G                                  F
G -------------------------------------------------------------------------------------------------------------------------------------
D -----------------------------------------------------------------------------------5---5/7-5-----------------------------------------
A -------------------------------------------------------------3-------------------5---5---------5-5-----------------------------------
E -6-6-6-6-6-6-6-6-6-6-8-8-10-10-6-6-5-5-5-5-5-5-5-5-5-5-5-5-5---5-4-3-3-3-3-3-3-3-------------------0-1-1-1-1-1-1-1-1-1-1-3-3-5-5-1-1-


Verse
   Bb                                      F
G ---------------10-10---------------10-10-----------------12-12------------------12-12-
D -----10-10-8-8-----------10-10-8-8-----------12-12-10-10------------12-12-10-10-------
A -8-8-----------------8-8-----------------8-8--------------------8-8-------------------
E --------------------------------------------------------------------------------------
   G                                             F
G -----------------10-10------------------10-10------------------12-12-----------------12-12-
D -------10-10-8-8--------------10-10-8-8------------12-12-10-10-----------12-12-10-10-------
A -10-10------------------10-10------------------8-8-------------------8-8-------------------
E -------------------------------------------------------------------------------------------


Interlude/Break
   Bb                                A                               G                               F
G -----------------------------------------------------------------------------------------------------------------------------------
D -----------------------------------------------------------------------------------------------------------------------------------
A -------------------------------------------------------------3---------------------------------------------------------------------
E -6-6-6-6-6-6-6-6-6-6-8-8-10-10-6-6-5-5-5-5-5-5-5-5-5-5-5-5-5---5-4-3-3-3-3-3-3-3-3-3-3-3-3-3-3-3-3-1-1-1-1-1-1-1-1-1-1-3-3-5-5-1-1-


Chorus
   Bb                              A                               G                               F
G ---------------------------------------------------------------------------------------------------------------------------------
D ---------------------7h8-----7h8---------------------------------------------------------5-5-------------------------------------
A ---------------------------------------------5/7-8-8---------------------------------5-5-----5-5---------------------------------
E -6-6-6-6-6-6-6-6-6-6-----6-6-----5-5-5-5-5-5---------8-8-5-5-1-1-3-3-3-3-3-3-3-3-3-3-------------1-1-1-1-1-1-1-1-1-1-3-3-5-5-1-1-
   Bb                              A                               G                               F
G -----------------------------------------------------------------------------------------------------------------------------------
D -----------8-7h8---------------------------7-5h7---------------------------------5---5-----------2-3-3-3-3-3-3-3-------------------
A -------------------------5-5---------------------5-5-7-7-8-8-------------------5---5----------/5-----------------3---3-------------
E -6-6-6-6-6-------6-6-8-8-----6-6-5-5-5-5-5-------------------8-8-3-3-3-3-3-3-3---------3-------------------------------1-1-3-3-5-5-

The song is structured like so,
Intro
Verse x2
Interlude/Break
Verse
Chorus
Interlude/Break
Verse x2
Chorus
Bridge
Chorus
Outro
Its not complete, I just tabbed out the main parts. For the chords, check out this page, http://music.j-total.net/data/013su/037_SCANDAL/001.html
But as you can see, its kind of difficult. I think out of all SCANDAL's songs, Sakura Goodbye has the trickiest bass line. Listen to the song carefully for the transitions. There are a lot of unsyncopated notes, especially in the chorus, that throw off the timing. I put the root chords above to indicate when it changes.

Enjoy.

Offline melon.PAN

  • 戦場ヶ原. ひたぎ
  • Member
  • Posts: 11
  • Jap Music forever!
Re: The SCANDAL Tabs/Music Score Thread
« Reply #37 on: December 12, 2009, 04:37:17 PM »
Hi!

Mmmm, i've made the tab without a specific beat timing!

x3, x4, x1 means the number of times that you must repeat before you continue to the next. (exept when I say that you must repeat the "A x4, B x1" two times, it means; A, A, A, A,, B A, A, A, A, B. ok?  

The pauses in the song is something that you must calculate by listening the song a few times. Space Ranger, in a exceptional case, have not pauses.

Play the bass some times without listening to the song, catch the rythm, and play it again. Listen the song without playing the bass, and try to remember how the arrangements sounds like. Practice and more practice, just ain't another way ;D

Wish you good luck, if I can make a decent video, will upload it so you can follow it.

 :cow:

ya i underdtand le.  ty
i will practice hard fighto! gambateh!
- haha its ok for making a video dun nid so troublesome! so dun make video ok? hmm but u can make video for others to see..   ^-^ haha

MODIFY: i tink i nid the video T^T still canot sync wif the song.. i nid to noe the speed.
« Last Edit: December 13, 2009, 09:00:17 AM by melon.PAN »

Offline AREHO

  • Member+
  • Posts: 87
  • Bss lvr nd plyr
Re: The SCANDAL Tabs/Music Score Thread
« Reply #38 on: December 13, 2009, 01:27:17 PM »
ok, just give me some time, gonna make the video as soon as i can :nervous


WE ARE CONECTED BY THE MUSIC

Offline melon.PAN

  • 戦場ヶ原. ひたぎ
  • Member
  • Posts: 11
  • Jap Music forever!
Re: The SCANDAL Tabs/Music Score Thread
« Reply #39 on: December 13, 2009, 06:29:26 PM »
ok, just give me some time, gonna make the video as soon as i can :nervous


haha.. dun nid so fast, just take ur time..   :D

JPHiP Radio (23/200 @ 128 kbs)     Now playing: Halcali - Tip Taps Tip