JPHiP Radio (29/200 @ 128 kbs)     Now playing: Toe - Everything Means Nothing

Author Topic: The SCANDAL Tabs/Music Score Thread  (Read 41185 times)

Offline lambchopsuey

  • Member+
  • Posts: 326
  • Takamiy~
The SCANDAL Tabs/Music Score Thread
« on: October 11, 2009, 07:30:27 PM »
"Space Ranger" chords: http://www9.ocn.ne.jp/~knatsu/score/score-065.html

"Koi Moyou" chords: http://www9.ocn.ne.jp/~knatsu/score/score-064.html

"DOLL" chords: http://www.xxxsound.jp/main/song.3414.html
"DOLL" band score: http://www.mediafire.com/?rzmcycmm4me (jpg; credits: marcochow1218)

"SAKURA Goodbye" chords: http://music.j-total.net/data/013su/037_SCANDAL/001.html

"ShoujoS" chords: http://music.j-total.net/data/013su/037_SCANDAL/002.html
"ShoujoS" band score: http://www.mediafire.com/?z3kmo3jzzze (pdf; credits: marcochow1218)

"SO EASY" opening guitar solo: (credits: marcochow1218)
Code: [Select]
e|---------------------------------------------|
B|-----14-15-14-------17-14----15-14-----------|
G|--14----------14-----------14---------14-----|
D|---------------------------------------------|
A|---------------------------------------------|
E|---------------------------------------------|

e|---------------------------------------------|
B|-----14-15-14-------17-14----15-14-----------|
G|--14----------14-----------14---------14-----|
D|---------------------------------------------|
A|---------------------------------------------|
E|---------------------------------------------|

e|---------------------------------------------|
B|-----14-15-14-------17-14----15-14-----------|
G|--14----------14-----------14---------14-----|
D|---------------------------------------------|
A|---------------------------------------------|
E|---------------------------------------------|

e|---------------------------------------------|
B|---------------------------------------------|
G|--14-14-14-14-14-14-14-14-12-12-12-12-12-12--|
D|--14-14-14-14-14-14-14-14-12-12-12-12-12-12--|
A|---------------------------------------------|
E|---------------------------------------------|

"BEAUTeen!!" opening guitar solo: (credits: marcochow1218)
Code: [Select]
e|-------------------------------------------------10------|
B|------------11/13--11~-----------11/13-11-13---13-11-----|
G|-----10-------------------10-----------------------------|
D|--12----12-------------12----12--------------------------|
A|---------------------------------------------------------|
E|---------------------------------------------------------|

e|------------------------------13-11-8-6------------------|
B|------------11/13--11~--------13-11-8-6------------------|
G|-----10--------------------------------------------------|
D|-/12----12-----------------------------------------------|
A|---------------------------------------------------------|
E|---------------------------------------------------------|

Offline SomethingWild

  • ほっといてよ~ うざいんだよ
  • Member+
  • Posts: 19662
  • 君の泣き顔は見たくないよ!
Re: The SCANDAL Tabs/Music Score Thread
« Reply #1 on: October 11, 2009, 07:43:02 PM »
^Excellent! I was in the progress of tabbing Shoujo S. Once I get my recording stuff set-up, I may be able to record some cool stuff  :rockon:

Offline suicune141

  • Member+
  • Posts: 394
Re: The SCANDAL Tabs/Music Score Thread
« Reply #2 on: October 17, 2009, 04:59:58 PM »
Ooh, very awesome collection here. If only there were more piano sheet music scores of SCANDAL, though.  :( However, I found this Shoujo S transcription on YouTube, transcribed by a YT member as well as performed~

SCANDAL - Shoujo S SHEET MUSIC VIDEO piano cover by duVillage (TV Size Version)

And here's direct links he offered for the sheets:

http://www.twitter.com/?d=8YCQ5S9E
http://rapidshare.com/files/261348017/_RaveD__SCANDAL_-_Shoujo_S__Full_Version_.pdf.html

More mirrors and the TV-size version sheets in the video's description at that YouTube link above~  :)

Offline AREHO

  • Member+
  • Posts: 87
  • Bss lvr nd plyr
Re: The SCANDAL Tabs/Music Score Thread
« Reply #3 on: October 24, 2009, 03:37:05 PM »
There is a bass player arround here who likes some bass tabs? I don't wanna upload them unless somebody wants it =P
If the answer is "yes", tell me which song, and I'm gonna make it as soon as I can.


WE ARE CONECTED BY THE MUSIC

Offline suicune141

  • Member+
  • Posts: 394
Re: The SCANDAL Tabs/Music Score Thread
« Reply #4 on: October 24, 2009, 03:42:03 PM »
*sigh* I guess I'm the only piano player around here. Well, if I transcribe anything, I guess I'll keep it to myself.  :( [I still gotta transcribe Marionette anyhow, I'm halfway done....]

Offline nikid

  • Member+
  • Posts: 63
Re: The SCANDAL Tabs/Music Score Thread
« Reply #5 on: November 04, 2009, 07:31:53 PM »
piano music sheets, awesome...i can only play the piano, not very well though...havent play for a few months now  :sweatdrop: so i have to train a lot...
you're not the only one sui-chan, dont keep only for yourself...share with me  :).....
« Last Edit: November 04, 2009, 07:35:27 PM by nikid »


Offline SomethingWild

  • ほっといてよ~ うざいんだよ
  • Member+
  • Posts: 19662
  • 君の泣き顔は見たくないよ!
Re: The SCANDAL Tabs/Music Score Thread
« Reply #7 on: November 06, 2009, 10:30:17 AM »
^Awesome. I really wasn't expecting that!

Offline Heat_cloud

  • Member
  • Posts: 18
Re: The SCANDAL Tabs/Music Score Thread
« Reply #8 on: November 06, 2009, 11:29:07 PM »
uhmm mybe i shouldn't post this here, but well, i got a request. XD
anyone got Bass tabs of their songs? i've been searching for them but can't find any. thnks in advance

Offline Heat_cloud

  • Member
  • Posts: 18
Re: The SCANDAL Tabs/Music Score Thread
« Reply #9 on: November 08, 2009, 02:09:10 AM »
well i made a cover of BEAUteen!
here is the video, i'm still writing the tabs i will post them later ^^

BEAUteen! Cover

Offline nikid

  • Member+
  • Posts: 63
Re: The SCANDAL Tabs/Music Score Thread
« Reply #10 on: November 08, 2009, 02:03:24 PM »
nice cover Heat_cloud  :thumbsup   the sound isnt very good, but is a good cover :twothumbs

Offline Heat_cloud

  • Member
  • Posts: 18
Re: The SCANDAL Tabs/Music Score Thread
« Reply #11 on: November 08, 2009, 02:50:51 PM »
nice cover Heat_cloud  :thumbsup   the sound isnt very good, but is a good cover :twothumbs

hahha i know the soud sucks a little since the  camera wad on top of my speaker  XD

Offline boykun

  • トマトケチャップ 100% OK
  • Member+
  • Posts: 3537
Re: The SCANDAL Tabs/Music Score Thread
« Reply #12 on: November 09, 2009, 07:37:43 AM »
Tabs thread. Sweet.

I tried doing a cover of Sakura Goodbye.

SAKURA グッバイ cover

Sorry for the crappy quality. I used my webcam to record this, and it sucks. It's horrible at tracking the movements, so it seems like I'm playing off sync. But the sound is there, so you guys get the idea, right? :lol:

Tabs. I just figured it out by ear. Feel free to correct them. Chords are on the first post. ^
Code: [Select]
Intro riff. Listen to it for the timing.
e ------------------------
B --10-10-13-10-11-10-10-10--
G --10-10-10-10-10-10-12-10--
D --10-10-10-10-10-10-10-10--
A ------------------------
E ------------------------

Chorus goes like this,
e -------------------------------------------
B --x-x-10-x-11-10-x-10---10-13-13-11-10-10-10--
G --x-x-10-x-10-10-x-10---10-10-10-10-10-12-10--
D --x-x-10-x-10-10-x-10---10-10-10-10-10-10-10--
A -------------------------------------------
E -------------------------------------------
Then this the 4th time
e ----------------------------------
B --x-x-10-x-11-10-x-10-------------
G --x-x-10-x-10-10-x-10--10-10--12--12/14~-
D --x-x-10-x-10-10-x-10-------------
A ----------------------------------
E ----------------------------------

Instead of chords, there's this on the 2nd verse
e --------3-1-------3~---1~----------
B ------1-----1-----3~---1~-----6----
G ----2-------------3~---2~---5---5~-
D --3-----------3/5-5~---3~----------
A --
E --

The riff at the very end goes something like this,
e --13-13-15-13-13-17-13-13--
B --13-13-13-13-13-13-13-13--

Offline Heat_cloud

  • Member
  • Posts: 18
Re: The SCANDAL Tabs/Music Score Thread
« Reply #13 on: November 09, 2009, 03:06:56 PM »
nie boykuun^^ i wanted to post that tabs too but you did it before me! :p good work  :jphip:

Offline SomethingWild

  • ほっといてよ~ うざいんだよ
  • Member+
  • Posts: 19662
  • 君の泣き顔は見たくないよ!
Re: The SCANDAL Tabs/Music Score Thread
« Reply #14 on: November 10, 2009, 06:13:34 PM »
Awesome stuff, HeatCloud and Boykun! Keep rocking!

Man... I wish I had a camera haha.

Offline boykun

  • トマトケチャップ 100% OK
  • Member+
  • Posts: 3537
Re: The SCANDAL Tabs/Music Score Thread
« Reply #15 on: November 11, 2009, 03:16:51 AM »
SCANDAL - Don't say "lazy"

I gave a shot at Scandal's cover of "Don't Say Lazy." The rhythm on the intro/bridge parts are kind of tricky to put on tab. Just watch the performance for the right timing. Otherwise, the song is pretty easy to play. Again, feel free to make corrections.

I'll try to get a video up when I get a chance.

Code: [Select]
Intro. Listen to the timing/rhythm
e -------------------------
B ------------------------
G --9---10---7--9-10---7--
D --9---10---7--9-10---7--
A --7----8---5--7--8---5--
E ------------------------

Chorus (C D Bm E D C D E)
e -------------
B -------------
G --5--------7--------4--------9----7----5--------7--------9-9-x-x-x-x-9-9-x-x-x-x-9--9--
D --5--------7--------4--------9----7----5--------7--------9-9-x-x-x-x-9-9-x-x-x-x-9--9--
A --3--------5--------2--------7----5----3--------5--------7-7-x-x-x-x-7-7-x-x-x-x-7--7--
E --------------------------------------------------------------------------------------
(C D Bm E D A Bm E)
e -------------
B ---------------
G --5--------7--------4--------9----7----------------------9-9-x-x-x-x-9-9-x-x-x-x-9--9--
D --5--------7--------4--------9----7----7--------9--------9-9-x-x-x-x-9-9-x-x-x-x-9--9--
A --3--------5--------2--------7----5----7--------9--------7-7-x-x-x-x-7-7-x-x-x-x-7--7--
E ---------------------------------------5--------7--------------------------------------

Interlude riff thing.
D ----------------------------------
A ---------------------------------
E --0-0-7-7-6-6-3-3-5-5-2-2-3---3--
4th time play
D ------9-9-8-8-5-5-7-7-4-4-5---5--
A --7-7-----------------------------
E ----------------------------------

Verse A
A --2-2------2-2------5---5--  x2  A ---------------------------------
E --0-0------0-0------3---3-- then E --0-0-7-7-6-6-3-3-5-5-2-2-3---3--

Verse B, first part
e ------------
B ------------------------------------------------------------------------------------
G --9--------11--------14----------------12----11----9--------11--------14--------16--
D ------------------------------------------------------------------------------------
A --7---------9--------12----------------10-----9----7---------9--------12--------14--
E ------------------------------------------------------------------------------------
second part
e ------------
B -----------------------------------------10--------11--------12--------15--
G --9--------11--------14--------12------------------------------------------
D-------------------------------------------7---------8---------9--------12--
A --7---------9--------12--------10------------------------------------------
E ---------------------------------------------------------------------------

Bridge. Rhythm/timing same as intro
The ones in parentheses are what Haruna plays
B --------------------------------------------------------
G ----------------------(9)---(10)---(7)--(9)-(10)---(7)--
D --7---8---5--7-8---5--(9)---(10)---(7)--(9)-(10)---(7)--
A --7---8---5--7-8---5--(7)----(8)---(5)--(7)--(8)---(5)--
E --5---6---3--5-6---3------------------------------------
They trade off for a bit, then,
B ---------------------------------------------------------------------------
G --6---7---4--7---8---5--8---9---6--9---10---7--10---11---8--10---11---8--
D --6---7---4--7---8---5--8---9---6--9---10---7--10---11---8--10---11---8--
A --4---5---2--5---6---3--6---7---4--7----8---5---8----9---6---8----9---6--
E ---------------------------------------------------------------------------
Just listen for the rhythm. Kind of confusing to put on the tab.
B ------------------------------------------------------
G --10-10-10-11-11-11-12-12-12-13-13-13-14----15----16--
D --10-10-10-11-11-11-12-12-12-13-13-13-14----15----16--
A ---8--8--8--9--9--9-10-10-10-11-11-11-12----13----14--
E ------------------------------------------------------

Outro same as interlude riff thing.
D ----------------------------------
A ---------------------------------
E --0-0-7-7-6-6-3-3-5-5-2-2-3---3--
4th time play and end with
D ------9-9-8-8-5-5-7-7-4-4-5-5-5-5--
A --7-7------------------------------
E ----------------------------------
« Last Edit: November 11, 2009, 03:24:18 AM by boykun »

Offline suicune141

  • Member+
  • Posts: 394
Re: The SCANDAL Tabs/Music Score Thread
« Reply #16 on: November 12, 2009, 02:17:27 AM »
Well, with the band scores, I have DOLL and Shojo S for the piano.... But I would really love to play Koi no Kajitsu, Koi Moyou, and Space Ranger...  :cry: Hmm.... if anyone gets that BEST*SCANDAL score book.... >_> Hrm. I might have to scavenge for some scans. There would certainly be scores for Space Ranger and Koi Moyou, but not Koi no Kajitsu.... TT^TT

Offline Heat_cloud

  • Member
  • Posts: 18
Re: The SCANDAL Tabs/Music Score Thread
« Reply #17 on: November 12, 2009, 03:27:56 AM »
Well, with the band scores, I have DOLL and Shojo S for the piano.... But I would really love to play Koi no Kajitsu, Koi Moyou, and Space Ranger...  :cry: Hmm.... if anyone gets that BEST*SCANDAL score book.... >_> Hrm. I might have to scavenge for some scans. There would certainly be scores for Space Ranger and Koi Moyou, but not Koi no Kajitsu.... TT^TT

:O can you share the band scores? lol anyway i never tryed to play their song on the piano :O

anyway if you are intrested i can make tabs fot Koi Moyou and Koi no Kajitsu for guitar XD i do know these songs :P

Offline suicune141

  • Member+
  • Posts: 394
Re: The SCANDAL Tabs/Music Score Thread
« Reply #18 on: November 12, 2009, 12:26:31 PM »
They're in the first post....  :roll: And I can't play guitar.

EDIT: Hmm.... I dunno if Koi no Kajitsu was transcribed for the guitar, but Koi Moyou definitely was. Like I said, I don't play guitar, never have (but really would like to), but I'm sure the people who do wouldn't mind having a copy. I dunno, I'll let them speak for themselves.  ;) Hrmm... well. I dunno if I'll be able to transcribe their songs for the piano, because they're super fast. And I only just began amateur transcriptions (Marionette, a slow song), so meh.  :cry:

I wonder if that score book will be available on YesAsia or....something. =T
« Last Edit: November 12, 2009, 12:53:14 PM by suicune141 »

Offline lambchopsuey

  • Member+
  • Posts: 326
  • Takamiy~
Re: The SCANDAL Tabs/Music Score Thread
« Reply #19 on: November 12, 2009, 10:35:03 PM »
Here's a guy covering MAMI's guitar part in "Kagerou":
カゲロウ SCANDAL 耳コピギター
Some mistakes (and no pick slide!), but still, pretty good. :)
He also plays bass and has other great vids, too. Check out his channel.

JPHiP Radio (29/200 @ 128 kbs)     Now playing: Toe - Everything Means Nothing